ISO-10303-21;
HEADER;
FILE_DESCRIPTION(('STEP AP214'),'1');
FILE_NAME('WLP4_0P82X0P82_MEM','2022-05-24T12:58:27',(''),(''),'','','');
FILE_SCHEMA(('AUTOMOTIVE_DESIGN'));
ENDSEC;
DATA;
#1=SHAPE_DEFINITION_REPRESENTATION(#2,#3);
#2=PRODUCT_DEFINITION_SHAPE('',$,#4);
#3=SHAPE_REPRESENTATION('',(#71,#80,#89,#98,#108,#164,#19),#11);
#4=PRODUCT_DEFINITION('design','example product_definition',#6,#5);
#5=PRODUCT_DEFINITION_CONTEXT('3D Mechanical Parts',#10,'design');
#6=PRODUCT_DEFINITION_FORMATION('1.0','first version',#8);
#7=APPLICATION_PROTOCOL_DEFINITION('international standard','automotive_design',2003,#10);
#8=PRODUCT('product','part','',(#9));
#9=PRODUCT_CONTEXT('3D Mechanical Parts',#10,'mechanical');
#10=APPLICATION_CONTEXT('Core Data for Automotive Mechanical Design Process');
#11=(GEOMETRIC_REPRESENTATION_CONTEXT(3) GLOBAL_UNCERTAINTY_ASSIGNED_CONTEXT((#12)) GLOBAL_UNIT_ASSIGNED_CONTEXT((#13,#14,#18)) REPRESENTATION_CONTEXT('ID1','3D'));
#12=UNCERTAINTY_MEASURE_WITH_UNIT(LENGTH_MEASURE(1.E-005),#13,'DISTANCE_ACCURACY_VALUE','Maximum model space distance between geometric entities at asserted connectivities');
#13=(LENGTH_UNIT() NAMED_UNIT(*) SI_UNIT(.MILLI.,.METRE.));
#14=(CONVERSION_BASED_UNIT('degree',#16) NAMED_UNIT(#15) PLANE_ANGLE_UNIT());
#15=DIMENSIONAL_EXPONENTS(0.,0.,0.,0.,0.,0.,0.);
#16=MEASURE_WITH_UNIT(PLANE_ANGLE_MEASURE(0.01745329252),#17);
#17=(NAMED_UNIT(*) PLANE_ANGLE_UNIT() SI_UNIT($,.RADIAN.));
#18=(NAMED_UNIT(*) SI_UNIT($,.STERADIAN.) SOLID_ANGLE_UNIT());
#19=AXIS2_PLACEMENT_3D('',#20,#21,#22);
#20=CARTESIAN_POINT('',(0.0,0.0,0.0));
#21=DIRECTION('',(0.0,0.0,1.0));
#22=DIRECTION('',(1.0,0.0,0.0));
#25=MECHANICAL_DESIGN_GEOMETRIC_PRESENTATION_REPRESENTATION($,(#73,#82,#91,#100,#160,#161,#162,#166,#215,#264,#313,#362,#411),#11);
#26=PRODUCT_CATEGORY_RELATIONSHIP('','',#27,#28);
#27=PRODUCT_CATEGORY('part','');
#28=PRODUCT_RELATED_PRODUCT_CATEGORY('','',(#8));
#34=PRESENTATION_STYLE_ASSIGNMENT((#35,#40));
#35=SURFACE_STYLE_USAGE(.BOTH.,#36);
#36=SURFACE_SIDE_STYLE('',(#37));
#37=SURFACE_STYLE_FILL_AREA(#38);
#38=FILL_AREA_STYLE('',(#39));
#39=FILL_AREA_STYLE_COLOUR('',#41);
#40=CURVE_STYLE('',#42,POSITIVE_LENGTH_MEASURE(0.1),#41);
#41=COLOUR_RGB('Aluminum',0.725,0.725,0.725);
#42=DRAUGHTING_PRE_DEFINED_CURVE_FONT('continuous');
#43=PRESENTATION_STYLE_ASSIGNMENT((#44,#49));
#44=SURFACE_STYLE_USAGE(.BOTH.,#45);
#45=SURFACE_SIDE_STYLE('',(#46));
#46=SURFACE_STYLE_FILL_AREA(#47);
#47=FILL_AREA_STYLE('',(#48));
#48=FILL_AREA_STYLE_COLOUR('',#50);
#49=CURVE_STYLE('',#51,POSITIVE_LENGTH_MEASURE(0.1),#50);
#50=COLOUR_RGB('Black',0.196,0.196,0.196);
#51=DRAUGHTING_PRE_DEFINED_CURVE_FONT('continuous');
#52=PRESENTATION_STYLE_ASSIGNMENT((#53,#58));
#53=SURFACE_STYLE_USAGE(.BOTH.,#54);
#54=SURFACE_SIDE_STYLE('',(#55));
#55=SURFACE_STYLE_FILL_AREA(#56);
#56=FILL_AREA_STYLE('',(#57));
#57=FILL_AREA_STYLE_COLOUR('',#59);
#58=CURVE_STYLE('',#60,POSITIVE_LENGTH_MEASURE(0.1),#59);
#59=COLOUR_RGB('Pin1',0.588,0.588,0.588);
#60=DRAUGHTING_PRE_DEFINED_CURVE_FONT('continuous');
#61=PRESENTATION_STYLE_ASSIGNMENT((#62,#67));
#62=SURFACE_STYLE_USAGE(.BOTH.,#63);
#63=SURFACE_SIDE_STYLE('',(#64));
#64=SURFACE_STYLE_FILL_AREA(#65);
#65=FILL_AREA_STYLE('',(#66));
#66=FILL_AREA_STYLE_COLOUR('',#68);
#67=CURVE_STYLE('',#69,POSITIVE_LENGTH_MEASURE(0.1),#68);
#68=COLOUR_RGB('HeatTab',0.588,0.588,0.588);
#69=DRAUGHTING_PRE_DEFINED_CURVE_FONT('continuous');
#71=MANIFOLD_SOLID_BREP($,#72);
#72=CLOSED_SHELL('',(#74));
#73=STYLED_ITEM('color',(#34),#74);
#74=ADVANCED_FACE('',(),#75,.T.);
#75=SPHERICAL_SURFACE('',#76,0.127);
#76=AXIS2_PLACEMENT_3D('',#77,#78,#79);
#77=CARTESIAN_POINT('',(-0.2,0.2,0.127));
#78=DIRECTION('',(0.,0.,-1.));
#79=DIRECTION('',(-1.,0.,0.));
#80=MANIFOLD_SOLID_BREP($,#81);
#81=CLOSED_SHELL('',(#83));
#82=STYLED_ITEM('color',(#34),#83);
#83=ADVANCED_FACE('',(),#84,.T.);
#84=SPHERICAL_SURFACE('',#85,0.127);
#85=AXIS2_PLACEMENT_3D('',#86,#87,#88);
#86=CARTESIAN_POINT('',(0.2,0.2,0.127));
#87=DIRECTION('',(0.,0.,-1.));
#88=DIRECTION('',(-1.,0.,0.));
#89=MANIFOLD_SOLID_BREP($,#90);
#90=CLOSED_SHELL('',(#92));
#91=STYLED_ITEM('color',(#34),#92);
#92=ADVANCED_FACE('',(),#93,.T.);
#93=SPHERICAL_SURFACE('',#94,0.127);
#94=AXIS2_PLACEMENT_3D('',#95,#96,#97);
#95=CARTESIAN_POINT('',(-0.2,-0.2,0.127));
#96=DIRECTION('',(0.,0.,-1.));
#97=DIRECTION('',(-1.,0.,0.));
#98=MANIFOLD_SOLID_BREP($,#99);
#99=CLOSED_SHELL('',(#101));
#100=STYLED_ITEM('color',(#34),#101);
#101=ADVANCED_FACE('',(),#102,.T.);
#102=SPHERICAL_SURFACE('',#103,0.127);
#103=AXIS2_PLACEMENT_3D('',#104,#105,#106);
#104=CARTESIAN_POINT('',(0.2,-0.2,0.127));
#105=DIRECTION('',(0.,0.,-1.));
#106=DIRECTION('',(-1.,0.,0.));
#108=MANIFOLD_SOLID_BREP($,#109);
#109=CLOSED_SHELL('',(#110,#111,#112));
#110=ADVANCED_FACE($,(#116,#115),#133,.T.);
#111=ADVANCED_FACE($,(#117),#113,.F.);
#112=ADVANCED_FACE($,(#118),#114,.T.);
#113=PLANE($,#138);
#114=PLANE($,#139);
#115=FACE_BOUND($,#120,.T.);
#116=FACE_OUTER_BOUND($,#119,.T.);
#117=FACE_OUTER_BOUND($,#121,.T.);
#118=FACE_OUTER_BOUND($,#122,.T.);
#119=EDGE_LOOP($,(#129));
#120=EDGE_LOOP($,(#130));
#121=EDGE_LOOP($,(#131));
#122=EDGE_LOOP($,(#132));
#123=CIRCLE($,#136,0.020955);
#124=CIRCLE($,#137,0.020955);
#125=VERTEX_POINT('',#154);
#126=VERTEX_POINT('',#156);
#127=EDGE_CURVE($,#125,#125,#123,.T.);
#128=EDGE_CURVE($,#126,#126,#124,.T.);
#129=ORIENTED_EDGE($,*,*,#127,.F.);
#130=ORIENTED_EDGE($,*,*,#128,.F.);
#131=ORIENTED_EDGE($,*,*,#128,.T.);
#132=ORIENTED_EDGE($,*,*,#127,.T.);
#133=CYLINDRICAL_SURFACE($,#135,0.020955);
#134=AXIS2_PLACEMENT_3D('placement',#152,#140,#141);
#135=AXIS2_PLACEMENT_3D($,#153,#142,#143);
#136=AXIS2_PLACEMENT_3D($,#155,#144,#145);
#137=AXIS2_PLACEMENT_3D($,#157,#146,#147);
#138=AXIS2_PLACEMENT_3D($,#158,#148,#149);
#139=AXIS2_PLACEMENT_3D($,#159,#150,#151);
#140=DIRECTION('axis',(0.,1.,0.));
#141=DIRECTION('refdir',(1.,0.,0.));
#142=DIRECTION('',(0.,0.,1.));
#143=DIRECTION('',(1.,0.,0.));
#144=DIRECTION('',(0.,0.,1.));
#145=DIRECTION('',(1.,0.,0.));
#146=DIRECTION('',(0.,0.,-1.));
#147=DIRECTION('',(1.,0.,0.));
#148=DIRECTION('',(0.,0.,1.));
#149=DIRECTION('',(0.,1.,0.));
#150=DIRECTION('',(0.,0.,1.));
#151=DIRECTION('',(0.,1.,0.));
#152=CARTESIAN_POINT('',(0.,0.,0.));
#153=CARTESIAN_POINT('',(-0.335,0.335,0.61));
#154=CARTESIAN_POINT('',(-0.356,0.335,0.612));
#155=CARTESIAN_POINT('',(-0.335,0.335,0.612));
#156=CARTESIAN_POINT('',(-0.356,0.335,0.61));
#157=CARTESIAN_POINT('',(-0.335,0.335,0.61));
#158=CARTESIAN_POINT('',(-0.335,0.335,0.61));
#159=CARTESIAN_POINT('',(-0.335,0.335,0.612));
#160=STYLED_ITEM('color',(#52),#110);
#161=STYLED_ITEM('color',(#52),#111);
#162=STYLED_ITEM('color',(#52),#112);
#164=MANIFOLD_SOLID_BREP($,#165);
#165=CLOSED_SHELL('',(#167,#216,#265,#314,#363,#412));
#166=STYLED_ITEM('',(#43),#167);
#167=ADVANCED_FACE('',(#173),#168,.T.);
#168=PLANE('',#169);
#169=AXIS2_PLACEMENT_3D('',#170,#171,#172);
#170=CARTESIAN_POINT('',(-0.419,-0.419,0.253));
#171=DIRECTION('',(0.0,-1.0,0.0));
#172=DIRECTION('',(0.,0.,1.));
#173=FACE_OUTER_BOUND('',#174,.T.);
#174=EDGE_LOOP('',(#175,#185,#195,#205));
#178=CARTESIAN_POINT('',(0.419,-0.419,0.253));
#177=VERTEX_POINT('',#178);
#180=CARTESIAN_POINT('',(-0.419,-0.419,0.253));
#179=VERTEX_POINT('',#180);
#176=EDGE_CURVE('',#177,#179,#181,.T.);
#181=LINE('',#178,#183);
#183=VECTOR('',#184,0.8382);
#184=DIRECTION('',(-1.0,0.0,0.0));
#175=ORIENTED_EDGE('',*,*,#176,.F.);
#188=CARTESIAN_POINT('',(0.419,-0.419,0.61));
#187=VERTEX_POINT('',#188);
#186=EDGE_CURVE('',#187,#177,#191,.T.);
#191=LINE('',#188,#193);
#193=VECTOR('',#194,0.3566000000066);
#194=DIRECTION('',(0.0,0.0,-1.0));
#185=ORIENTED_EDGE('',*,*,#186,.F.);
#198=CARTESIAN_POINT('',(-0.419,-0.419,0.61));
#197=VERTEX_POINT('',#198);
#196=EDGE_CURVE('',#197,#187,#201,.T.);
#201=LINE('',#198,#203);
#203=VECTOR('',#204,0.8382);
#204=DIRECTION('',(1.0,0.0,0.0));
#195=ORIENTED_EDGE('',*,*,#196,.F.);
#206=EDGE_CURVE('',#179,#197,#211,.T.);
#211=LINE('',#180,#213);
#213=VECTOR('',#214,0.3566000000066);
#214=DIRECTION('',(0.0,0.0,1.0));
#205=ORIENTED_EDGE('',*,*,#206,.F.);
#215=STYLED_ITEM('',(#43),#216);
#216=ADVANCED_FACE('',(#222),#217,.T.);
#217=PLANE('',#218);
#218=AXIS2_PLACEMENT_3D('',#219,#220,#221);
#219=CARTESIAN_POINT('',(0.419,-0.419,0.253));
#220=DIRECTION('',(1.0,0.0,0.0));
#221=DIRECTION('',(0.,0.,1.));
#222=FACE_OUTER_BOUND('',#223,.T.);
#223=EDGE_LOOP('',(#224,#234,#244,#254));
#227=CARTESIAN_POINT('',(0.419,0.419,0.253));
#226=VERTEX_POINT('',#227);
#225=EDGE_CURVE('',#226,#177,#230,.T.);
#230=LINE('',#227,#232);
#232=VECTOR('',#233,0.8382);
#233=DIRECTION('',(0.0,-1.0,0.0));
#224=ORIENTED_EDGE('',*,*,#225,.F.);
#237=CARTESIAN_POINT('',(0.419,0.419,0.61));
#236=VERTEX_POINT('',#237);
#235=EDGE_CURVE('',#236,#226,#240,.T.);
#240=LINE('',#237,#242);
#242=VECTOR('',#243,0.3566000000066);
#243=DIRECTION('',(0.0,0.0,-1.0));
#234=ORIENTED_EDGE('',*,*,#235,.F.);
#245=EDGE_CURVE('',#187,#236,#250,.T.);
#250=LINE('',#188,#252);
#252=VECTOR('',#253,0.8382);
#253=DIRECTION('',(0.0,1.0,0.0));
#244=ORIENTED_EDGE('',*,*,#245,.F.);
#254=ORIENTED_EDGE('',*,*,#186,.T.);
#264=STYLED_ITEM('',(#43),#265);
#265=ADVANCED_FACE('',(#271),#266,.T.);
#266=PLANE('',#267);
#267=AXIS2_PLACEMENT_3D('',#268,#269,#270);
#268=CARTESIAN_POINT('',(0.419,0.419,0.253));
#269=DIRECTION('',(0.0,1.0,0.0));
#270=DIRECTION('',(0.,0.,1.));
#271=FACE_OUTER_BOUND('',#272,.T.);
#272=EDGE_LOOP('',(#273,#283,#293,#303));
#276=CARTESIAN_POINT('',(-0.419,0.419,0.253));
#275=VERTEX_POINT('',#276);
#274=EDGE_CURVE('',#275,#226,#279,.T.);
#279=LINE('',#276,#281);
#281=VECTOR('',#282,0.8382);
#282=DIRECTION('',(1.0,0.0,0.0));
#273=ORIENTED_EDGE('',*,*,#274,.F.);
#286=CARTESIAN_POINT('',(-0.419,0.419,0.61));
#285=VERTEX_POINT('',#286);
#284=EDGE_CURVE('',#285,#275,#289,.T.);
#289=LINE('',#286,#291);
#291=VECTOR('',#292,0.3566000000066);
#292=DIRECTION('',(0.0,0.0,-1.0));
#283=ORIENTED_EDGE('',*,*,#284,.F.);
#294=EDGE_CURVE('',#236,#285,#299,.T.);
#299=LINE('',#237,#301);
#301=VECTOR('',#302,0.8382);
#302=DIRECTION('',(-1.0,0.0,0.0));
#293=ORIENTED_EDGE('',*,*,#294,.F.);
#303=ORIENTED_EDGE('',*,*,#235,.T.);
#313=STYLED_ITEM('',(#43),#314);
#314=ADVANCED_FACE('',(#320),#315,.T.);
#315=PLANE('',#316);
#316=AXIS2_PLACEMENT_3D('',#317,#318,#319);
#317=CARTESIAN_POINT('',(-0.419,0.419,0.253));
#318=DIRECTION('',(-1.0,0.0,0.0));
#319=DIRECTION('',(0.,0.,1.));
#320=FACE_OUTER_BOUND('',#321,.T.);
#321=EDGE_LOOP('',(#322,#332,#342,#352));
#323=EDGE_CURVE('',#179,#275,#328,.T.);
#328=LINE('',#180,#330);
#330=VECTOR('',#331,0.8382);
#331=DIRECTION('',(0.0,1.0,0.0));
#322=ORIENTED_EDGE('',*,*,#323,.F.);
#332=ORIENTED_EDGE('',*,*,#206,.T.);
#343=EDGE_CURVE('',#285,#197,#348,.T.);
#348=LINE('',#286,#350);
#350=VECTOR('',#351,0.8382);
#351=DIRECTION('',(0.0,-1.0,0.0));
#342=ORIENTED_EDGE('',*,*,#343,.F.);
#352=ORIENTED_EDGE('',*,*,#284,.T.);
#362=STYLED_ITEM('',(#43),#363);
#363=ADVANCED_FACE('',(#369),#364,.T.);
#364=PLANE('',#365);
#365=AXIS2_PLACEMENT_3D('',#366,#367,#368);
#366=CARTESIAN_POINT('',(-0.419,0.419,0.253));
#367=DIRECTION('',(0.0,0.0,-1.0));
#368=DIRECTION('',(0.,1.,0.));
#369=FACE_OUTER_BOUND('',#370,.T.);
#370=EDGE_LOOP('',(#371,#381,#391,#401));
#371=ORIENTED_EDGE('',*,*,#274,.T.);
#381=ORIENTED_EDGE('',*,*,#225,.T.);
#391=ORIENTED_EDGE('',*,*,#176,.T.);
#401=ORIENTED_EDGE('',*,*,#323,.T.);
#411=STYLED_ITEM('',(#43),#412);
#412=ADVANCED_FACE('',(#418),#413,.T.);
#413=PLANE('',#414);
#414=AXIS2_PLACEMENT_3D('',#415,#416,#417);
#415=CARTESIAN_POINT('',(-0.419,-0.419,0.61));
#416=DIRECTION('',(0.0,0.0,1.0));
#417=DIRECTION('',(0.,1.,0.));
#418=FACE_OUTER_BOUND('',#419,.T.);
#419=EDGE_LOOP('',(#420,#430,#440,#450));
#420=ORIENTED_EDGE('',*,*,#196,.T.);
#430=ORIENTED_EDGE('',*,*,#245,.T.);
#440=ORIENTED_EDGE('',*,*,#294,.T.);
#450=ORIENTED_EDGE('',*,*,#343,.T.);
ENDSEC;
END-ISO-10303-21;
